  0
SECTION
  2
HEADER
  9
$ACADVER
  1
AC1009
  9
$INSBASE
 10
241.2784269999999
 20
54.06210385441897
 30
0.0
  9
$EXTMIN
 10
241.2784269999999
 20
54.06210385441897
 30
0.0
  9
$EXTMAX
 10
469.9565900774434
 20
224.617246145581
 30
0.0
  9
$LIMMIN
 10
0.0
 20
0.0
  9
$LIMMAX
 10
420.0
 20
297.0
  9
$ORTHOMODE
 70
     1
  9
$REGENMODE
 70
     1
  9
$FILLMODE
 70
     1
  9
$QTEXTMODE
 70
     0
  9
$MIRRTEXT
 70
     0
  9
$DRAGMODE
 70
     2
  9
$LTSCALE
 40
1.0
  9
$OSMODE
 70
     0
  9
$ATTMODE
 70
     1
  9
$TEXTSIZE
 40
3.5
  9
$TRACEWID
 40
0.1
  9
$TEXTSTYLE
  7
STANDARD
  9
$CLAYER
  8
0
  9
$CELTYPE
  6
BYLAYER
  9
$CECOLOR
 62
   256
  9
$DIMSCALE
 40
1.0
  9
$DIMASZ
 40
2.0
  9
$DIMEXO
 40
1.0
  9
$DIMDLI
 40
8.0
  9
$DIMRND
 40
0.0
  9
$DIMDLE
 40
0.0
  9
$DIMEXE
 40
2.0
  9
$DIMTP
 40
0.1
  9
$DIMTM
 40
0.1
  9
$DIMTXT
 40
3.5
  9
$DIMCEN
 40
2.0
  9
$DIMTSZ
 40
0.0
  9
$DIMTOL
 70
     0
  9
$DIMLIM
 70
     0
  9
$DIMTIH
 70
     0
  9
$DIMTOH
 70
     0
  9
$DIMSE1
 70
     0
  9
$DIMSE2
 70
     0
  9
$DIMTAD
 70
     1
  9
$DIMZIN
 70
     8
  9
$DIMBLK
  1

  9
$DIMASO
 70
     1
  9
$DIMSHO
 70
     1
  9
$DIMPOST
  1

  9
$DIMAPOST
  1

  9
$DIMALT
 70
     0
  9
$DIMALTD
 70
     2
  9
$DIMALTF
 40
25.39999999999999
  9
$DIMLFAC
 40
1.0
  9
$DIMTOFL
 70
     1
  9
$DIMTVP
 40
0.0
  9
$DIMTIX
 70
     0
  9
$DIMSOXD
 70
     0
  9
$DIMSAH
 70
     0
  9
$DIMBLK1
  1

  9
$DIMBLK2
  1

  9
$DIMSTYLE
  2
*UNNAMED
  9
$DIMCLRD
 70
     0
  9
$DIMCLRE
 70
     0
  9
$DIMCLRT
 70
     0
  9
$DIMTFAC
 40
1.0
  9
$DIMGAP
 40
0.09
  9
$LUNITS
 70
     2
  9
$LUPREC
 70
     3
  9
$SKETCHINC
 40
0.1
  9
$FILLETRAD
 40
20.0
  9
$AUNITS
 70
     0
  9
$AUPREC
 70
     1
  9
$MENU
  1

  9
$ELEVATION
 40
0.0
  9
$PELEVATION
 40
0.0
  9
$THICKNESS
 40
0.0
  9
$LIMCHECK
 70
     0
  9
$BLIPMODE
 70
     0
  9
$CHAMFERA
 40
5.0
  9
$CHAMFERB
 40
5.0
  9
$SKPOLY
 70
     1
  9
$TDCREATE
 40
2448873.723305787
  9
$TDUPDATE
 40
2449393.440224537
  9
$TDINDWG
 40
0.0000724537
  9
$TDUSRTIMER
 40
0.0000724537
  9
$USRTIMER
 70
     1
  9
$ANGBASE
 50
0.0
  9
$ANGDIR
 70
     0
  9
$PDMODE
 70
     0
  9
$PDSIZE
 40
0.0
  9
$PLINEWID
 40
0.0
  9
$COORDS
 70
     2
  9
$SPLFRAME
 70
     0
  9
$SPLINETYPE
 70
     6
  9
$SPLINESEGS
 70
     8
  9
$ATTDIA
 70
     1
  9
$ATTREQ
 70
     1
  9
$HANDLING
 70
     0
  9
$HANDSEED
  5
CBE
  9
$SURFTAB1
 70
     6
  9
$SURFTAB2
 70
     6
  9
$SURFTYPE
 70
     6
  9
$SURFU
 70
     6
  9
$SURFV
 70
     6
  9
$UCSNAME
  2

  9
$UCSORG
 10
0.0
 20
0.0
 30
0.0
  9
$UCSXDIR
 10
1.0
 20
0.0
 30
0.0
  9
$UCSYDIR
 10
0.0
 20
1.0
 30
0.0
  9
$PUCSNAME
  2

  9
$PUCSORG
 10
0.0
 20
0.0
 30
0.0
  9
$PUCSXDIR
 10
1.0
 20
0.0
 30
0.0
  9
$PUCSYDIR
 10
0.0
 20
1.0
 30
0.0
  9
$USERI1
 70
     0
  9
$USERI2
 70
     3
  9
$USERI3
 70
    15
  9
$USERI4
 70
     0
  9
$USERI5
 70
     0
  9
$USERR1
 40
1.0
  9
$USERR2
 40
1.0
  9
$USERR3
 40
0.0
  9
$USERR4
 40
1.0
  9
$USERR5
 40
0.0
  9
$WORLDVIEW
 70
     5
  9
$SHADEDGE
 70
     3
  9
$SHADEDIF
 70
    70
  9
$TILEMODE
 70
     1
  9
$MAXACTVP
 70
    16
  9
$PINSBASE
 10
0.0
 20
0.0
 30
0.0
  9
$PLIMCHECK
 70
     0
  9
$PEXTMIN
 10
1.000000000000000E+20
 20
1.000000000000000E+20
 30
1.000000000000000E+20
  9
$PEXTMAX
 10
-1.000000000000000E+20
 20
-1.000000000000000E+20
 30
-1.000000000000000E+20
  9
$PLIMMIN
 10
0.0
 20
0.0
  9
$PLIMMAX
 10
12.0
 20
9.0
  9
$UNITMODE
 70
     0
  9
$VISRETAIN
 70
     0
  9
$PLINEGEN
 70
     0
  9
$PSLTSCALE
 70
     0
  9
$TREEDEPTH
 70
  3020
  9
$DWGCODEPAGE
  3
undefined
  0
ENDSEC
  0
SECTION
  2
TABLES
  0
TABLE
  2
VPORT
 70
     2
  0
VPORT
  2
*ACTIVE
 70
     0
 10
0.0
 20
0.0
 11
1.0
 21
1.0
 12
359.0231216178744
 22
146.3619703980917
 13
0.0
 23
0.0
 14
1.0
 24
1.0
 15
10.0
 25
10.0
 16
0.0
 26
0.0
 36
1.0
 17
0.0
 27
0.0
 37
0.0
 40
184.5997330873456
 41
1.275675675675675
 42
50.0
 43
0.0
 44
0.0
 50
0.0
 51
0.0
 71
     0
 72
   100
 73
     1
 74
     0
 75
     0
 76
     0
 77
     0
 78
     0
  0
ENDTAB
  0
TABLE
  2
LTYPE
 70
     3
  0
LTYPE
  2
CONTINUOUS
 70
    64
  3
Solid line
 72
    65
 73
     0
 40
0.0
  0
LTYPE
  2
GEN
 70
    64
  3
----------------------
 72
    65
 73
     2
 40
10000000000.0
 49
0.0
 49
10000000000.0
  0
LTYPE
  2
ITEM-STRICHPGR
 70
    64
  3
____ . ____ . ____ . ____ . ____ . ____ . ____
 72
    65
 73
     4
 40
15.0
 49
10.0
 49
-2.5
 49
0.0
 49
-2.5
  0
ENDTAB
  0
TABLE
  2
LAYER
 70
     3
  0
LAYER
  2
0
 70
     0
 62
     7
  6
GEN
  0
LAYER
  2
ITEM_50
 70
    64
 62
     7
  6
CONTINUOUS
  0
LAYER
  2
ITEM_STPG
 70
    64
 62
     4
  6
ITEM-STRICHPGR
  0
ENDTAB
  0
TABLE
  2
STYLE
 70
     1
  0
STYLE
  2
STANDARD
 70
     0
 40
0.0
 41
1.0
 50
0.0
 71
     0
 42
3.5
  3
ISO8
  4

  0
ENDTAB
  0
TABLE
  2
VIEW
 70
     0
  0
ENDTAB
  0
TABLE
  2
UCS
 70
     0
  0
ENDTAB
  0
TABLE
  2
APPID
 70
     1
  0
APPID
  2
ACAD
 70
    64
  0
ENDTAB
  0
TABLE
  2
DIMSTYLE
 70
     0
  0
ENDTAB
  0
ENDSEC
  0
SECTION
  2
BLOCKS
  0
ENDSEC
  0
SECTION
  2
ENTITIES
  0
LINE
  8
ITEM_50
 10
250.2784269999999
 20
179.617246145581
 30
0.0
 11
402.278427
 21
179.617246145581
 31
0.0
  0
LINE
  8
ITEM_50
 10
406.278427
 20
183.617246145581
 30
0.0
 11
406.278427
 21
215.617246145581
 31
0.0
  0
LINE
  8
ITEM_50
 10
402.278427
 20
219.617246145581
 30
0.0
 11
330.278427
 21
219.617246145581
 31
0.0
  0
ARC
  8
ITEM_50
 10
250.2784269999999
 20
215.617246145581
 30
0.0
 40
4.0
 50
90.0
 51
116.5650509999999
  0
ARC
  8
ITEM_50
 10
250.2784269999999
 20
183.617246145581
 30
0.0
 40
4.0
 50
180.0
 51
270.0
  0
ARC
  8
ITEM_50
 10
402.278427
 20
183.617246145581
 30
0.0
 40
4.0
 50
270.0
 51
0.0
  0
ARC
  8
ITEM_50
 10
402.278427
 20
215.617246145581
 30
0.0
 40
4.0
 50
0.0
 51
0.000018
  0
LINE
  8
ITEM_50
 10
250.2784269999999
 20
181.617246145581
 30
0.0
 11
402.278427
 21
181.617246145581
 31
0.0
  0
LINE
  8
ITEM_50
 10
404.278427
 20
183.617246145581
 30
0.0
 11
404.278427
 21
215.617246145581
 31
0.0
  0
LINE
  8
ITEM_50
 10
402.278427
 20
217.617246145581
 30
0.0
 11
250.2784269999999
 21
217.617246145581
 31
0.0
  0
ARC
  8
ITEM_50
 10
250.2784269999999
 20
215.617246145581
 30
0.0
 40
2.0
 50
90.0
 51
179.999964
  0
ARC
  8
ITEM_50
 10
250.2784269999999
 20
183.617246145581
 30
0.0
 40
2.0
 50
180.0
 51
270.0
  0
ARC
  8
ITEM_50
 10
402.278427
 20
183.617246145581
 30
0.0
 40
2.0
 50
270.0
 51
0.0
  0
ARC
  8
ITEM_50
 10
402.278427
 20
215.617246145581
 30
0.0
 40
2.0
 50
0.0
 51
0.000036
  0
ARC
  8
ITEM_50
 10
250.2784269999999
 20
215.617246145581
 30
0.0
 40
4.0
 50
179.999973
 51
180.0
  0
LINE
  8
ITEM_50
 10
246.2784269999999
 20
215.617246145581
 30
0.0
 11
246.2784269999999
 21
183.617246145581
 31
0.0
  0
ARC
  8
ITEM_50
 10
250.2784269999999
 20
215.617246145581
 30
0.0
 40
2.0
 50
179.999964
 51
180.0
  0
LINE
  8
ITEM_50
 10
248.2784269999999
 20
215.617246145581
 30
0.0
 11
248.2784269999999
 21
183.617246145581
 31
0.0
  0
ARC
  8
ITEM_50
 10
402.278427
 20
215.617246145581
 30
0.0
 40
2.0
 50
0.000036
 51
90.0
  0
ARC
  8
ITEM_50
 10
250.2784269999999
 20
215.617246145581
 30
0.0
 40
4.0
 50
116.5650509999999
 51
179.999973
  0
LINE
  8
ITEM_50
 10
330.278426
 20
219.617246145581
 30
0.0
 11
402.278427
 21
219.617246145581
 31
0.0
  0
LINE
  8
ITEM_50
 10
250.2784259999999
 20
219.617246145581
 30
0.0
 11
402.278427
 21
219.617246145581
 31
0.0
  0
LINE
  8
ITEM_STPG
 10
346.278427
 20
207.9683355818688
 30
0.0
 11
346.278427
 21
190.4249622435073
 31
0.0
  0
LINE
  8
ITEM_STPG
 10
386.278427
 20
207.9608188067242
 30
0.0
 11
386.278427
 21
190.2857206643586
 31
0.0
  0
LINE
  8
ITEM_50
 10
469.438823124477
 20
139.3396749999999
 30
0.0
 11
469.438823124477
 21
140.8396749999999
 31
0.0
  0
LINE
  8
ITEM_50
 10
466.938823124477
 20
143.3396749999999
 30
0.0
 11
431.938823124477
 21
143.3396749999999
 31
0.0
  0
LINE
  8
ITEM_50
 10
429.438823124477
 20
140.8396749999999
 30
0.0
 11
429.438823124477
 21
139.3396749999999
 31
0.0
  0
ARC
  8
ITEM_50
 10
466.938823124477
 20
140.8396749999999
 30
0.0
 40
2.5
 50
0.0
 51
90.0
  0
ARC
  8
ITEM_50
 10
431.938823124477
 20
140.8396749999999
 30
0.0
 40
2.5
 50
90.0
 51
180.0
  0
LINE
  8
ITEM_50
 10
452.438823124477
 20
130.3396749999999
 30
0.0
 11
450.438823124477
 21
130.3396749999999
 31
0.0
  0
LINE
  8
ITEM_50
 10
446.438823124477
 20
130.3396749999999
 30
0.0
 11
446.188823124477
 21
139.3396749999999
 31
0.0
  0
LINE
  8
ITEM_50
 10
452.688823124477
 20
139.3396749999999
 30
0.0
 11
452.438823124477
 21
130.3396749999999
 31
0.0
  0
LINE
  8
ITEM_50
 10
429.4388231244769
 20
139.3396749999999
 30
0.0
 11
469.438823124477
 21
139.3396749999999
 31
0.0
  0
LINE
  8
ITEM_50
 10
448.438823124477
 20
130.3396749999999
 30
0.0
 11
446.438823124477
 21
130.3396749999999
 31
0.0
  0
LINE
  8
ITEM_50
 10
450.438823124477
 20
130.3396749999999
 30
0.0
 11
448.438823124477
 21
130.3396749999999
 31
0.0
  0
LINE
  8
ITEM_STPG
 10
449.438823124477
 20
148.3396749999999
 30
0.0
 11
449.438823124477
 21
125.3396749999999
 31
0.0
  0
LINE
  8
ITEM_STPG
 10
306.278427
 20
207.7454865480739
 30
0.0
 11
306.278427
 21
190.4250778924093
 31
0.0
  0
LINE
  8
ITEM_STPG
 10
266.278427
 20
208.031805926469
 30
0.0
 11
266.278427
 21
190.3729093763829
 31
0.0
  0
LINE
  8
ITEM_STPG
 10
241.2784269999999
 20
199.617246145581
 30
0.0
 11
411.278427
 21
199.617246145581
 31
0.0
  0
LINE
  8
ITEM_STPG
 10
386.278427
 20
191.462210145581
 30
0.0
 11
386.278427
 21
207.736029145581
 31
0.0
  0
LINE
  8
ITEM_50
 10
384.2577319999999
 20
196.498464145581
 30
0.0
 11
385.3642619999999
 21
196.498464145581
 31
0.0
  0
LINE
  8
ITEM_50
 10
384.5138759999999
 20
196.868450145581
 30
0.0
 11
388.042978
 21
196.868450145581
 31
0.0
  0
LINE
  8
ITEM_50
 10
388.2429779999999
 20
197.068450145581
 30
0.0
 11
388.2429779999999
 21
202.166042145581
 31
0.0
  0
LINE
  8
ITEM_50
 10
388.042977
 20
202.366042145581
 30
0.0
 11
384.5138759999999
 21
202.366042145581
 31
0.0
  0
ARC
  8
ITEM_50
 10
388.042978
 20
202.166042145581
 30
0.0
 40
0.2
 50
0.0
 51
90.00021499999999
  0
ARC
  8
ITEM_50
 10
388.299122
 20
202.536029145581
 30
0.0
 40
0.2
 50
0.0
 51
90.0
  0
LINE
  8
ITEM_50
 10
388.299122
 20
202.736029145581
 30
0.0
 11
387.1925919999999
 21
202.736029145581
 31
0.0
  0
LINE
  8
ITEM_50
 10
384.0577319999999
 20
202.536028145581
 30
0.0
 11
384.0577319999999
 21
201.990222145581
 31
0.0
  0
ARC
  8
ITEM_50
 10
384.2577319999999
 20
202.536029145581
 30
0.0
 40
0.2
 50
89.999547
 51
180.0002499999999
  0
ARC
  8
ITEM_50
 10
384.5138759999999
 20
202.166042145581
 30
0.0
 40
0.2
 50
90.0
 51
180.000438
  0
LINE
  8
ITEM_50
 10
384.3138759999999
 20
202.166041145581
 30
0.0
 11
384.3138759999999
 21
197.068450145581
 31
0.0
  0
CIRCLE
  8
ITEM_50
 10
386.278427
 20
199.617246145581
 30
0.0
 40
1.0
  0
ARC
  8
ITEM_50
 10
386.278427
 20
199.617246145581
 30
0.0
 40
3.25
 50
46.898656
 51
46.898656
  0
LINE
  8
ITEM_50
 10
385.3642619999999
 20
196.498464145581
 30
0.0
 11
387.1925919999999
 21
196.498464145581
 31
0.0
  0
LINE
  8
ITEM_50
 10
387.1925919999999
 20
196.498464145581
 30
0.0
 11
388.299122
 21
196.498464145581
 31
0.0
  0
ARC
  8
ITEM_50
 10
386.278427
 20
199.617246145581
 30
0.0
 40
3.25
 50
313.1013439999999
 51
46.898656
  0
LINE
  8
ITEM_50
 10
388.4991219999999
 20
197.244271145581
 30
0.0
 11
388.4991219999999
 21
201.990222145581
 31
0.0
  0
LINE
  8
ITEM_50
 10
388.4991219999999
 20
201.990222145581
 30
0.0
 11
388.4991219999999
 21
202.536029145581
 31
0.0
  0
LINE
  8
ITEM_50
 10
387.1925919999999
 20
202.736029145581
 30
0.0
 11
385.3642619999999
 21
202.736029145581
 31
0.0
  0
LINE
  8
ITEM_50
 10
385.3642619999999
 20
202.736029145581
 30
0.0
 11
384.2577329999999
 21
202.736029145581
 31
0.0
  0
ARC
  8
ITEM_50
 10
386.278427
 20
199.617246145581
 30
0.0
 40
3.25
 50
133.101344
 51
226.8986559999999
  0
LINE
  8
ITEM_50
 10
384.0577319999999
 20
201.990222145581
 30
0.0
 11
384.0577319999999
 21
197.244271145581
 31
0.0
  0
LINE
  8
ITEM_50
 10
385.278427
 20
196.498464145581
 30
0.0
 11
385.278427
 21
194.607246145581
 31
0.0
  0
LINE
  8
ITEM_50
 10
387.278427
 20
194.607246145581
 30
0.0
 11
387.278427
 21
196.498464145581
 31
0.0
  0
LINE
  8
ITEM_50
 10
387.278427
 20
202.736029145581
 30
0.0
 11
387.278427
 21
204.627246145581
 31
0.0
  0
LINE
  8
ITEM_50
 10
386.288427
 20
205.617246145581
 30
0.0
 11
386.2684269999999
 21
205.617246145581
 31
0.0
  0
LINE
  8
ITEM_50
 10
385.278427
 20
204.627246145581
 30
0.0
 11
385.278427
 21
202.736029145581
 31
0.0
  0
ARC
  8
ITEM_50
 10
386.288427
 20
204.627246145581
 30
0.0
 40
0.99
 50
0.0
 51
90.0
  0
ARC
  8
ITEM_50
 10
386.2684269999999
 20
204.627246145581
 30
0.0
 40
0.99
 50
90.0
 51
180.0
  0
ARC
  8
ITEM_50
 10
386.2684269999999
 20
194.607246145581
 30
0.0
 40
0.99
 50
180.0
 51
270.0
  0
ARC
  8
ITEM_50
 10
386.288427
 20
194.607246145581
 30
0.0
 40
0.99
 50
270.0
 51
0.0
  0
ARC
  8
ITEM_50
 10
384.2577319999999
 20
196.698464145581
 30
0.0
 40
0.2
 50
179.99975
 51
270.0004529999999
  0
LINE
  8
ITEM_50
 10
384.0577319999999
 20
196.698465145581
 30
0.0
 11
384.0577319999999
 21
197.244271145581
 31
0.0
  0
ARC
  8
ITEM_50
 10
384.5138759999999
 20
197.068450145581
 30
0.0
 40
0.2
 50
179.9995619999999
 51
270.0
  0
ARC
  8
ITEM_50
 10
388.042978
 20
197.068450145581
 30
0.0
 40
0.2
 50
269.9997849999999
 51
0.0
  0
ARC
  8
ITEM_50
 10
388.299122
 20
196.698464145581
 30
0.0
 40
0.2
 50
270.0
 51
0.0
  0
LINE
  8
ITEM_50
 10
388.4991219999999
 20
197.244271145581
 30
0.0
 11
388.4991219999999
 21
196.698464145581
 31
0.0
  0
LINE
  8
ITEM_STPG
 10
266.278427
 20
191.462210145581
 30
0.0
 11
266.278427
 21
207.736029145581
 31
0.0
  0
LINE
  8
ITEM_50
 10
264.2577319999999
 20
196.498464145581
 30
0.0
 11
265.3642619999999
 21
196.498464145581
 31
0.0
  0
LINE
  8
ITEM_50
 10
264.5138759999999
 20
196.868450145581
 30
0.0
 11
268.042978
 21
196.868450145581
 31
0.0
  0
LINE
  8
ITEM_50
 10
268.2429779999999
 20
197.068450145581
 30
0.0
 11
268.2429779999999
 21
202.166042145581
 31
0.0
  0
LINE
  8
ITEM_50
 10
268.042977
 20
202.366042145581
 30
0.0
 11
264.5138759999999
 21
202.366042145581
 31
0.0
  0
ARC
  8
ITEM_50
 10
268.042978
 20
202.166042145581
 30
0.0
 40
0.2
 50
0.0
 51
90.00021499999999
  0
ARC
  8
ITEM_50
 10
268.299122
 20
202.536029145581
 30
0.0
 40
0.2
 50
0.0
 51
90.0
  0
LINE
  8
ITEM_50
 10
268.299122
 20
202.736029145581
 30
0.0
 11
267.1925919999999
 21
202.736029145581
 31
0.0
  0
LINE
  8
ITEM_50
 10
264.0577319999999
 20
202.536028145581
 30
0.0
 11
264.0577319999999
 21
201.990222145581
 31
0.0
  0
ARC
  8
ITEM_50
 10
264.2577319999999
 20
202.536029145581
 30
0.0
 40
0.2
 50
89.999547
 51
180.0002499999999
  0
ARC
  8
ITEM_50
 10
264.5138759999999
 20
202.166042145581
 30
0.0
 40
0.2
 50
90.0
 51
180.000438
  0
LINE
  8
ITEM_50
 10
264.3138759999999
 20
202.166041145581
 30
0.0
 11
264.3138759999999
 21
197.068450145581
 31
0.0
  0
CIRCLE
  8
ITEM_50
 10
266.278427
 20
199.617246145581
 30
0.0
 40
1.0
  0
ARC
  8
ITEM_50
 10
266.278427
 20
199.617246145581
 30
0.0
 40
3.25
 50
46.898656
 51
46.898656
  0
LINE
  8
ITEM_50
 10
265.3642619999999
 20
196.498464145581
 30
0.0
 11
267.1925919999999
 21
196.498464145581
 31
0.0
  0
LINE
  8
ITEM_50
 10
267.1925919999999
 20
196.498464145581
 30
0.0
 11
268.299122
 21
196.498464145581
 31
0.0
  0
ARC
  8
ITEM_50
 10
266.278427
 20
199.617246145581
 30
0.0
 40
3.25
 50
313.1013439999999
 51
46.898656
  0
LINE
  8
ITEM_50
 10
268.4991219999999
 20
197.244271145581
 30
0.0
 11
268.4991219999999
 21
201.990222145581
 31
0.0
  0
LINE
  8
ITEM_50
 10
268.4991219999999
 20
201.990222145581
 30
0.0
 11
268.4991219999999
 21
202.536029145581
 31
0.0
  0
LINE
  8
ITEM_50
 10
267.1925919999999
 20
202.736029145581
 30
0.0
 11
265.3642619999999
 21
202.736029145581
 31
0.0
  0
LINE
  8
ITEM_50
 10
265.3642619999999
 20
202.736029145581
 30
0.0
 11
264.2577329999999
 21
202.736029145581
 31
0.0
  0
ARC
  8
ITEM_50
 10
266.278427
 20
199.617246145581
 30
0.0
 40
3.25
 50
133.101344
 51
226.8986559999999
  0
LINE
  8
ITEM_50
 10
264.0577319999999
 20
201.990222145581
 30
0.0
 11
264.0577319999999
 21
197.244271145581
 31
0.0
  0
LINE
  8
ITEM_50
 10
265.278427
 20
196.498464145581
 30
0.0
 11
265.278427
 21
194.607246145581
 31
0.0
  0
LINE
  8
ITEM_50
 10
267.278427
 20
194.607246145581
 30
0.0
 11
267.278427
 21
196.498464145581
 31
0.0
  0
LINE
  8
ITEM_50
 10
267.278427
 20
202.736029145581
 30
0.0
 11
267.278427
 21
204.627246145581
 31
0.0
  0
LINE
  8
ITEM_50
 10
266.288427
 20
205.617246145581
 30
0.0
 11
266.2684269999999
 21
205.617246145581
 31
0.0
  0
LINE
  8
ITEM_50
 10
265.278427
 20
204.627246145581
 30
0.0
 11
265.278427
 21
202.736029145581
 31
0.0
  0
ARC
  8
ITEM_50
 10
266.288427
 20
204.627246145581
 30
0.0
 40
0.99
 50
0.0
 51
90.0
  0
ARC
  8
ITEM_50
 10
266.2684269999999
 20
204.627246145581
 30
0.0
 40
0.99
 50
90.0
 51
180.0
  0
ARC
  8
ITEM_50
 10
266.2684269999999
 20
194.607246145581
 30
0.0
 40
0.99
 50
180.0
 51
270.0
  0
ARC
  8
ITEM_50
 10
266.288427
 20
194.607246145581
 30
0.0
 40
0.99
 50
270.0
 51
0.0
  0
ARC
  8
ITEM_50
 10
264.2577319999999
 20
196.698464145581
 30
0.0
 40
0.2
 50
179.99975
 51
270.0004529999999
  0
LINE
  8
ITEM_50
 10
264.0577319999999
 20
196.698465145581
 30
0.0
 11
264.0577319999999
 21
197.244271145581
 31
0.0
  0
ARC
  8
ITEM_50
 10
264.5138759999999
 20
197.068450145581
 30
0.0
 40
0.2
 50
179.9995619999999
 51
270.0
  0
ARC
  8
ITEM_50
 10
268.042978
 20
197.068450145581
 30
0.0
 40
0.2
 50
269.9997849999999
 51
0.0
  0
ARC
  8
ITEM_50
 10
268.299122
 20
196.698464145581
 30
0.0
 40
0.2
 50
270.0
 51
0.0
  0
LINE
  8
ITEM_50
 10
268.4991219999999
 20
197.244271145581
 30
0.0
 11
268.4991219999999
 21
196.698464145581
 31
0.0
  0
LINE
  8
ITEM_STPG
 10
306.278427
 20
191.462210145581
 30
0.0
 11
306.278427
 21
207.736029145581
 31
0.0
  0
LINE
  8
ITEM_50
 10
304.2577319999999
 20
196.498464145581
 30
0.0
 11
305.3642619999999
 21
196.498464145581
 31
0.0
  0
LINE
  8
ITEM_50
 10
304.5138759999999
 20
196.868450145581
 30
0.0
 11
308.042978
 21
196.868450145581
 31
0.0
  0
LINE
  8
ITEM_50
 10
308.2429779999999
 20
197.068450145581
 30
0.0
 11
308.2429779999999
 21
202.166042145581
 31
0.0
  0
LINE
  8
ITEM_50
 10
308.042977
 20
202.366042145581
 30
0.0
 11
304.5138759999999
 21
202.366042145581
 31
0.0
  0
ARC
  8
ITEM_50
 10
308.042978
 20
202.166042145581
 30
0.0
 40
0.2
 50
0.0
 51
90.00021499999999
  0
ARC
  8
ITEM_50
 10
308.299122
 20
202.536029145581
 30
0.0
 40
0.2
 50
0.0
 51
90.0
  0
LINE
  8
ITEM_50
 10
308.299122
 20
202.736029145581
 30
0.0
 11
307.1925919999999
 21
202.736029145581
 31
0.0
  0
LINE
  8
ITEM_50
 10
304.0577319999999
 20
202.536028145581
 30
0.0
 11
304.0577319999999
 21
201.990222145581
 31
0.0
  0
ARC
  8
ITEM_50
 10
304.2577319999999
 20
202.536029145581
 30
0.0
 40
0.2
 50
89.999547
 51
180.0002499999999
  0
ARC
  8
ITEM_50
 10
304.5138759999999
 20
202.166042145581
 30
0.0
 40
0.2
 50
90.0
 51
180.000438
  0
LINE
  8
ITEM_50
 10
304.3138759999999
 20
202.166041145581
 30
0.0
 11
304.3138759999999
 21
197.068450145581
 31
0.0
  0
CIRCLE
  8
ITEM_50
 10
306.278427
 20
199.617246145581
 30
0.0
 40
1.0
  0
ARC
  8
ITEM_50
 10
306.278427
 20
199.617246145581
 30
0.0
 40
3.25
 50
46.898656
 51
46.898656
  0
LINE
  8
ITEM_50
 10
305.3642619999999
 20
196.498464145581
 30
0.0
 11
307.1925919999999
 21
196.498464145581
 31
0.0
  0
LINE
  8
ITEM_50
 10
307.1925919999999
 20
196.498464145581
 30
0.0
 11
308.299122
 21
196.498464145581
 31
0.0
  0
ARC
  8
ITEM_50
 10
306.278427
 20
199.617246145581
 30
0.0
 40
3.25
 50
313.1013439999999
 51
46.898656
  0
LINE
  8
ITEM_50
 10
308.4991219999999
 20
197.244271145581
 30
0.0
 11
308.4991219999999
 21
201.990222145581
 31
0.0
  0
LINE
  8
ITEM_50
 10
308.4991219999999
 20
201.990222145581
 30
0.0
 11
308.4991219999999
 21
202.536029145581
 31
0.0
  0
LINE
  8
ITEM_50
 10
307.1925919999999
 20
202.736029145581
 30
0.0
 11
305.3642619999999
 21
202.736029145581
 31
0.0
  0
LINE
  8
ITEM_50
 10
305.3642619999999
 20
202.736029145581
 30
0.0
 11
304.2577329999999
 21
202.736029145581
 31
0.0
  0
ARC
  8
ITEM_50
 10
306.278427
 20
199.617246145581
 30
0.0
 40
3.25
 50
133.101344
 51
226.8986559999999
  0
LINE
  8
ITEM_50
 10
304.0577319999999
 20
201.990222145581
 30
0.0
 11
304.0577319999999
 21
197.244271145581
 31
0.0
  0
LINE
  8
ITEM_50
 10
305.278427
 20
196.498464145581
 30
0.0
 11
305.278427
 21
194.607246145581
 31
0.0
  0
LINE
  8
ITEM_50
 10
307.278427
 20
194.607246145581
 30
0.0
 11
307.278427
 21
196.498464145581
 31
0.0
  0
LINE
  8
ITEM_50
 10
307.278427
 20
202.736029145581
 30
0.0
 11
307.278427
 21
204.627246145581
 31
0.0
  0
LINE
  8
ITEM_50
 10
306.288427
 20
205.617246145581
 30
0.0
 11
306.2684269999999
 21
205.617246145581
 31
0.0
  0
LINE
  8
ITEM_50
 10
305.278427
 20
204.627246145581
 30
0.0
 11
305.278427
 21
202.736029145581
 31
0.0
  0
ARC
  8
ITEM_50
 10
306.288427
 20
204.627246145581
 30
0.0
 40
0.99
 50
0.0
 51
90.0
  0
ARC
  8
ITEM_50
 10
306.2684269999999
 20
204.627246145581
 30
0.0
 40
0.99
 50
90.0
 51
180.0
  0
ARC
  8
ITEM_50
 10
306.2684269999999
 20
194.607246145581
 30
0.0
 40
0.99
 50
180.0
 51
270.0
  0
ARC
  8
ITEM_50
 10
306.288427
 20
194.607246145581
 30
0.0
 40
0.99
 50
270.0
 51
0.0
  0
ARC
  8
ITEM_50
 10
304.2577319999999
 20
196.698464145581
 30
0.0
 40
0.2
 50
179.99975
 51
270.0004529999999
  0
LINE
  8
ITEM_50
 10
304.0577319999999
 20
196.698465145581
 30
0.0
 11
304.0577319999999
 21
197.244271145581
 31
0.0
  0
ARC
  8
ITEM_50
 10
304.5138759999999
 20
197.068450145581
 30
0.0
 40
0.2
 50
179.9995619999999
 51
270.0
  0
ARC
  8
ITEM_50
 10
308.042978
 20
197.068450145581
 30
0.0
 40
0.2
 50
269.9997849999999
 51
0.0
  0
ARC
  8
ITEM_50
 10
308.299122
 20
196.698464145581
 30
0.0
 40
0.2
 50
270.0
 51
0.0
  0
LINE
  8
ITEM_50
 10
308.4991219999999
 20
197.244271145581
 30
0.0
 11
308.4991219999999
 21
196.698464145581
 31
0.0
  0
LINE
  8
ITEM_STPG
 10
346.278427
 20
191.462210145581
 30
0.0
 11
346.278427
 21
207.736029145581
 31
0.0
  0
LINE
  8
ITEM_50
 10
344.2577319999999
 20
196.498464145581
 30
0.0
 11
345.3642619999999
 21
196.498464145581
 31
0.0
  0
LINE
  8
ITEM_50
 10
344.5138759999999
 20
196.868450145581
 30
0.0
 11
348.042978
 21
196.868450145581
 31
0.0
  0
LINE
  8
ITEM_50
 10
348.2429779999999
 20
197.068450145581
 30
0.0
 11
348.2429779999999
 21
202.166042145581
 31
0.0
  0
LINE
  8
ITEM_50
 10
348.042977
 20
202.366042145581
 30
0.0
 11
344.5138759999999
 21
202.366042145581
 31
0.0
  0
ARC
  8
ITEM_50
 10
348.042978
 20
202.166042145581
 30
0.0
 40
0.2
 50
0.0
 51
90.00021499999999
  0
ARC
  8
ITEM_50
 10
348.299122
 20
202.536029145581
 30
0.0
 40
0.2
 50
0.0
 51
90.0
  0
LINE
  8
ITEM_50
 10
348.299122
 20
202.736029145581
 30
0.0
 11
347.1925919999999
 21
202.736029145581
 31
0.0
  0
LINE
  8
ITEM_50
 10
344.0577319999999
 20
202.536028145581
 30
0.0
 11
344.0577319999999
 21
201.990222145581
 31
0.0
  0
ARC
  8
ITEM_50
 10
344.2577319999999
 20
202.536029145581
 30
0.0
 40
0.2
 50
89.999547
 51
180.0002499999999
  0
ARC
  8
ITEM_50
 10
344.5138759999999
 20
202.166042145581
 30
0.0
 40
0.2
 50
90.0
 51
180.000438
  0
LINE
  8
ITEM_50
 10
344.3138759999999
 20
202.166041145581
 30
0.0
 11
344.3138759999999
 21
197.068450145581
 31
0.0
  0
CIRCLE
  8
ITEM_50
 10
346.278427
 20
199.617246145581
 30
0.0
 40
1.0
  0
ARC
  8
ITEM_50
 10
346.278427
 20
199.617246145581
 30
0.0
 40
3.25
 50
46.898656
 51
46.898656
  0
LINE
  8
ITEM_50
 10
345.3642619999999
 20
196.498464145581
 30
0.0
 11
347.1925919999999
 21
196.498464145581
 31
0.0
  0
LINE
  8
ITEM_50
 10
347.1925919999999
 20
196.498464145581
 30
0.0
 11
348.299122
 21
196.498464145581
 31
0.0
  0
ARC
  8
ITEM_50
 10
346.278427
 20
199.617246145581
 30
0.0
 40
3.25
 50
313.1013439999999
 51
46.898656
  0
LINE
  8
ITEM_50
 10
348.4991219999999
 20
197.244271145581
 30
0.0
 11
348.4991219999999
 21
201.990222145581
 31
0.0
  0
LINE
  8
ITEM_50
 10
348.4991219999999
 20
201.990222145581
 30
0.0
 11
348.4991219999999
 21
202.536029145581
 31
0.0
  0
LINE
  8
ITEM_50
 10
347.1925919999999
 20
202.736029145581
 30
0.0
 11
345.3642619999999
 21
202.736029145581
 31
0.0
  0
LINE
  8
ITEM_50
 10
345.3642619999999
 20
202.736029145581
 30
0.0
 11
344.2577329999999
 21
202.736029145581
 31
0.0
  0
ARC
  8
ITEM_50
 10
346.278427
 20
199.617246145581
 30
0.0
 40
3.25
 50
133.101344
 51
226.8986559999999
  0
LINE
  8
ITEM_50
 10
344.0577319999999
 20
201.990222145581
 30
0.0
 11
344.0577319999999
 21
197.244271145581
 31
0.0
  0
LINE
  8
ITEM_50
 10
345.278427
 20
196.498464145581
 30
0.0
 11
345.278427
 21
194.607246145581
 31
0.0
  0
LINE
  8
ITEM_50
 10
347.278427
 20
194.607246145581
 30
0.0
 11
347.278427
 21
196.498464145581
 31
0.0
  0
LINE
  8
ITEM_50
 10
347.278427
 20
202.736029145581
 30
0.0
 11
347.278427
 21
204.627246145581
 31
0.0
  0
LINE
  8
ITEM_50
 10
346.288427
 20
205.617246145581
 30
0.0
 11
346.2684269999999
 21
205.617246145581
 31
0.0
  0
LINE
  8
ITEM_50
 10
345.278427
 20
204.627246145581
 30
0.0
 11
345.278427
 21
202.736029145581
 31
0.0
  0
ARC
  8
ITEM_50
 10
346.288427
 20
204.627246145581
 30
0.0
 40
0.99
 50
0.0
 51
90.0
  0
ARC
  8
ITEM_50
 10
346.2684269999999
 20
204.627246145581
 30
0.0
 40
0.99
 50
90.0
 51
180.0
  0
ARC
  8
ITEM_50
 10
346.2684269999999
 20
194.607246145581
 30
0.0
 40
0.99
 50
180.0
 51
270.0
  0
ARC
  8
ITEM_50
 10
346.288427
 20
194.607246145581
 30
0.0
 40
0.99
 50
270.0
 51
0.0
  0
ARC
  8
ITEM_50
 10
344.2577319999999
 20
196.698464145581
 30
0.0
 40
0.2
 50
179.99975
 51
270.0004529999999
  0
LINE
  8
ITEM_50
 10
344.0577319999999
 20
196.698465145581
 30
0.0
 11
344.0577319999999
 21
197.244271145581
 31
0.0
  0
ARC
  8
ITEM_50
 10
344.5138759999999
 20
197.068450145581
 30
0.0
 40
0.2
 50
179.9995619999999
 51
270.0
  0
ARC
  8
ITEM_50
 10
348.042978
 20
197.068450145581
 30
0.0
 40
0.2
 50
269.9997849999999
 51
0.0
  0
ARC
  8
ITEM_50
 10
348.299122
 20
196.698464145581
 30
0.0
 40
0.2
 50
270.0
 51
0.0
  0
LINE
  8
ITEM_50
 10
348.4991219999999
 20
197.244271145581
 30
0.0
 11
348.4991219999999
 21
196.698464145581
 31
0.0
  0
CIRCLE
  8
ITEM_50
 10
366.278427
 20
199.617246145581
 30
0.0
 40
12.0
  0
CIRCLE
  8
ITEM_50
 10
366.278427
 20
199.617246145581
 30
0.0
 40
12.5
  0
CIRCLE
  8
ITEM_50
 10
286.278427
 20
199.617246145581
 30
0.0
 40
12.5
  0
CIRCLE
  8
ITEM_50
 10
286.278427
 20
199.617246145581
 30
0.0
 40
12.0
  0
LINE
  8
ITEM_STPG
 10
366.278427
 20
224.617246145581
 30
0.0
 11
366.278427
 21
174.617246145581
 31
0.0
  0
LINE
  8
ITEM_STPG
 10
286.278427
 20
224.617246145581
 30
0.0
 11
286.278427
 21
174.617246145581
 31
0.0
  0
LINE
  8
ITEM_50
 10
248.7784269999999
 20
143.3396749999999
 30
0.0
 11
403.778427
 21
143.3396749999999
 31
0.0
  0
LINE
  8
ITEM_STPG
 10
266.278427
 20
148.3396749999999
 30
0.0
 11
266.278427
 21
125.3396749999999
 31
0.0
  0
LINE
  8
ITEM_STPG
 10
306.278427
 20
148.3396749999999
 30
0.0
 11
306.278427
 21
125.3396749999999
 31
0.0
  0
LINE
  8
ITEM_50
 10
406.278427
 20
139.3396749999999
 30
0.0
 11
246.2784269999999
 21
139.3396749999999
 31
0.0
  0
LINE
  8
ITEM_50
 10
269.028427
 20
139.3396749999999
 30
0.0
 11
268.528427
 21
138.8396749999999
 31
0.0
  0
LINE
  8
ITEM_50
 10
264.0427129999999
 20
138.825389
 30
0.0
 11
264.278427
 21
130.3396749999999
 31
0.0
  0
LINE
  8
ITEM_50
 10
263.528427
 20
139.3396749999999
 30
0.0
 11
264.0427129999999
 21
138.825389
 31
0.0
  0
LINE
  8
ITEM_50
 10
268.278427
 20
130.3396749999999
 30
0.0
 11
268.5140319999999
 21
138.8214419999999
 31
0.0
  0
LINE
  8
ITEM_50
 10
264.278427
 20
130.3396749999999
 30
0.0
 11
268.278427
 21
130.3396749999999
 31
0.0
  0
LINE
  8
ITEM_50
 10
304.278427
 20
130.3396749999999
 30
0.0
 11
308.278427
 21
130.3396749999999
 31
0.0
  0
LINE
  8
ITEM_50
 10
308.278427
 20
130.3396749999999
 30
0.0
 11
308.5140319999999
 21
138.8214419999999
 31
0.0
  0
LINE
  8
ITEM_50
 10
303.528427
 20
139.3396749999999
 30
0.0
 11
304.0427129999999
 21
138.825389
 31
0.0
  0
LINE
  8
ITEM_50
 10
304.0427129999999
 20
138.825389
 30
0.0
 11
304.278427
 21
130.3396749999999
 31
0.0
  0
LINE
  8
ITEM_50
 10
309.028427
 20
139.3396749999999
 30
0.0
 11
308.528427
 21
138.8396749999999
 31
0.0
  0
LINE
  8
ITEM_50
 10
388.2856138166639
 20
130.3396749999999
 30
0.0
 11
384.278427
 21
130.3396749999999
 31
0.0
  0
LINE
  8
ITEM_50
 10
389.028427
 20
139.3396749999999
 30
0.0
 11
388.514563
 21
138.8258109999999
 31
0.0
  0
LINE
  8
ITEM_50
 10
388.514563
 20
138.8258109999999
 30
0.0
 11
388.2849919999999
 21
130.316627
 31
0.0
  0
LINE
  8
ITEM_50
 10
383.528427
 20
139.3396749999999
 30
0.0
 11
384.028427
 21
138.8396749999999
 31
0.0
  0
LINE
  8
ITEM_50
 10
384.0421509999999
 20
138.8456009999999
 30
0.0
 11
384.278427
 21
130.3396749999999
 31
0.0
  0
LINE
  8
ITEM_50
 10
349.028427
 20
139.3396749999999
 30
0.0
 11
348.528427
 21
138.8396749999999
 31
0.0
  0
LINE
  8
ITEM_50
 10
344.0427129999999
 20
138.825389
 30
0.0
 11
344.278427
 21
130.3396749999999
 31
0.0
  0
LINE
  8
ITEM_50
 10
343.528427
 20
139.3396749999999
 30
0.0
 11
344.0427129999999
 21
138.825389
 31
0.0
  0
LINE
  8
ITEM_STPG
 10
386.278427
 20
148.3396749999999
 30
0.0
 11
386.278427
 21
125.3396749999999
 31
0.0
  0
LINE
  8
ITEM_STPG
 10
346.278427
 20
148.3396749999999
 30
0.0
 11
346.278427
 21
125.3396749999999
 31
0.0
  0
LINE
  8
ITEM_50
 10
348.278427
 20
130.3396749999999
 30
0.0
 11
348.5140319999999
 21
138.8214419999999
 31
0.0
  0
LINE
  8
ITEM_50
 10
344.278427
 20
130.3396749999999
 30
0.0
 11
348.278427
 21
130.3396749999999
 31
0.0
  0
ARC
  8
ITEM_50
 10
403.778427
 20
140.8396749999999
 30
0.0
 40
2.5
 50
0.0
 51
90.0
  0
ARC
  8
ITEM_50
 10
248.7784269999999
 20
140.8396749999999
 30
0.0
 40
2.5
 50
90.0
 51
180.0
  0
LINE
  8
ITEM_50
 10
406.278427
 20
140.8396749999999
 30
0.0
 11
406.278427
 21
139.3396749999999
 31
0.0
  0
LINE
  8
ITEM_50
 10
246.2784269999999
 20
139.3396749999999
 30
0.0
 11
246.2784269999999
 21
140.8396749999999
 31
0.0
  0
ARC
  8
ITEM_50
 10
402.278427
 20
215.617246145581
 30
0.0
 40
4.0
 50
0.0
 51
90.0
  0
ARC
  8
ITEM_50
 10
402.278427
 20
63.06210385441897
 30
0.0
 40
4.0
 50
270.0
 51
0.0
  0
LINE
  8
ITEM_STPG
 10
286.278427
 20
54.06210385441897
 30
0.0
 11
286.278427
 21
104.0621038544189
 31
0.0
  0
LINE
  8
ITEM_STPG
 10
366.278427
 20
54.06210385441897
 30
0.0
 11
366.278427
 21
104.0621038544189
 31
0.0
  0
CIRCLE
  8
ITEM_50
 10
286.278427
 20
79.06210385441897
 30
0.0
 40
12.0
  0
CIRCLE
  8
ITEM_50
 10
286.278427
 20
79.06210385441897
 30
0.0
 40
12.5
  0
CIRCLE
  8
ITEM_50
 10
366.278427
 20
79.06210385441897
 30
0.0
 40
12.5
  0
CIRCLE
  8
ITEM_50
 10
366.278427
 20
79.06210385441897
 30
0.0
 40
12.0
  0
LINE
  8
ITEM_STPG
 10
241.2784269999999
 20
79.06210385441897
 30
0.0
 11
411.278427
 21
79.06210385441897
 31
0.0
  0
LINE
  8
ITEM_50
 10
250.2784259999999
 20
59.06210385441897
 30
0.0
 11
402.278427
 21
59.06210385441897
 31
0.0
  0
LINE
  8
ITEM_50
 10
330.278426
 20
59.06210385441897
 30
0.0
 11
402.278427
 21
59.06210385441897
 31
0.0
  0
ARC
  8
ITEM_50
 10
250.2784269999999
 20
63.06210385441897
 30
0.0
 40
4.0
 50
180.0000269999999
 51
243.4349489999999
  0
LINE
  8
ITEM_50
 10
246.2784269999999
 20
63.06210385441897
 30
0.0
 11
246.2784269999999
 21
95.06210385441897
 31
0.0
  0
ARC
  8
ITEM_50
 10
250.2784269999999
 20
63.06210385441897
 30
0.0
 40
4.0
 50
180.0
 51
180.0000269999999
  0
ARC
  8
ITEM_50
 10
402.278427
 20
63.06210385441897
 30
0.0
 40
4.0
 50
359.9999819999999
 51
0.0
  0
ARC
  8
ITEM_50
 10
402.278427
 20
95.06210385441897
 30
0.0
 40
4.0
 50
0.0
 51
90.0
  0
ARC
  8
ITEM_50
 10
250.2784269999999
 20
95.06210385441897
 30
0.0
 40
4.0
 50
90.0
 51
180.0
  0
ARC
  8
ITEM_50
 10
250.2784269999999
 20
63.06210385441897
 30
0.0
 40
4.0
 50
243.4349489999999
 51
270.0
  0
LINE
  8
ITEM_50
 10
402.278427
 20
59.06210385441897
 30
0.0
 11
330.278427
 21
59.06210385441897
 31
0.0
  0
LINE
  8
ITEM_50
 10
406.278427
 20
95.06210385441897
 30
0.0
 11
406.278427
 21
63.06210385441897
 31
0.0
  0
LINE
  8
ITEM_50
 10
250.2784269999999
 20
99.06210385441897
 30
0.0
 11
402.278427
 21
99.06210385441897
 31
0.0
  0
ENDSEC
  0
EOF
